Liedbegleitung für Gitarre (mit Videoanleitung)

5 Beiträge   •   Seite 1 von 1
Benutzeravatar
Remarc
findet den Ausgang nicht
Beiträge: 415
Registriert: 03.09.2009

Liedbegleitung für Gitarre (mit Videoanleitung)

Erstellt: von Remarc » 09.01.2012, 21:20

Zielsetzung des Workshops

Es werden hier keine fertigen Begleitarrangements zu bestimmten Liedern angeboten. Vielmehr wird, ausgehenden von einfachsten bis hin zu immer komplexeren Bausteinen, das Handwerkszeug geschaffen, mit dem man sich nach Durcharbeiten des Workshops eigene Arrangements zusammenstellen kann. Man kann also vom klassischen Dreischritt „Zeigen – Nachmachen – Anwenden“ sprechen.

Dabei werden die Fähigkeit, Tabulaturen zu lesen und das Grundwissen um Akkorde in den ersten Lagen vorausgesetzt. Der Umfang der begleitenden Texte wird dazu auf das notwendige Mindestmaß beschränkt.
Zuletzt geändert von Remarc am 09.01.2012, 21:39, insgesamt 1-mal geändert.

Benutzeravatar
Remarc
findet den Ausgang nicht
Beiträge: 415
Registriert: 03.09.2009

Bausteine zur Liedbegleitung Lektion 1

Erstellt: von Remarc » 09.01.2012, 21:23

Lektion 1
Inhalte:
Akkorde: A-Dur, E-Dur
Anschlag: Daumen, Zeigefinger, Mittelfinger
Notenwerte: Viertelnoten


Code: Alles auswählen

Übung 1:
     A                                                                 
E||----------------------|----------------------|----------------------|
B||------------2---------|------------2---------|------------2---------|
G||-------2---------2----|-------2---------2----|-------2---------2----|
D||----------------------|----------------------|----------------------|
A||--0-------------------|--0-------------------|--0-------------------|
E||----------------------|----------------------|----------------------|


  E                                                                 
----------------------|----------------------|----------------------|
------------0---------|------------0---------|------------0---------|
-------1---------1----|-------1---------1----|-------1---------1----|
----------------------|----------------------|----------------------|
----------------------|----------------------|----------------------|
--0-------------------|--0-------------------|--0-------------------|


                         A                   
----------------------|---------------------||
------------0---------|------------2--------||
-------1---------1----|-------2-------------||
----------------------|---------------------||
----------------------|--0------------------||
--0-------------------|---------------------||


Code: Alles auswählen

Übung 2:

     A                                                                 
E||----------------------|----------------------|----------------------|
B||-------2---------2----|-------2---------2----|-------2---------2----|
G||------------2---------|------------2---------|------------2---------|
D||----------------------|----------------------|----------------------|
A||--0-------------------|--0-------------------|--0-------------------|
E||----------------------|----------------------|----------------------|


  E                                                               
-------------------|----------------------|----------------------|
--0----------------|-------0---------0----|-------0---------0----|
--1----------------|------------1---------|------------1---------|
-------------------|----------------------|----------------------|
-------------------|----------------------|----------------------|
--0----------------|--0-------------------|--0-------------------|


                         A                 
----------------------|-------------------||
-------0---------0----|--2----------------||
------------1---------|--2----------------||
----------------------|-------------------||
----------------------|--0----------------||
--0-------------------|-------------------||


Hier kann man das entsprechende Videotutorial dazu ansehen:

http://youtu.be/-o_XX_TID7g

und hier das entsprechende Printmedium (PDF) herunterladen:

http://remarc.jimdo.com/liedbegleitung/lektion-1/

Vielleicht ist es ja für den ein oder anderen zu gebrauchen. Weitere Lektionen folgen so bald als möglich.

Liebe Grüße
Remarc

HanniNanni
kam, sah und postete
Beiträge: 42
Registriert: 09.10.2010

Erstellt: von HanniNanni » 09.01.2012, 21:54

@remarc

Das ist eine gute Idee; ich bin dabei! :P

Benutzeravatar
Remarc
findet den Ausgang nicht
Beiträge: 415
Registriert: 03.09.2009

Erstellt: von Remarc » 17.01.2012, 15:08

Lektion 2
Inhalte:
Akkorde: A-Dur, E-Dur, E7
Anschlag: Daumen, Zeigefinger, Mittelfinger, Ringfinger
Notenwerte: Achtelnoten
Taktarten: 6/8 Takt

(Neue Inhalte sind rot markiert.)

Code: Alles auswählen

Übung 3:

     A                    E7                   A                 
E||-----------0--------|-----------0--------|-----------0--------|
B||--------2-----2-----|--------3-----3-----|--------2-----2-----|
G||-----2-----------2--|-----1-----------1--|-----2-----------2--|
D||--------------------|--------------------|--------------------|
A||--0-----------------|--------------------|--0-----------------|
E||--------------------|--0-----------------|--------------------|

  E7                   A                    E7                 
-----------0--------|-----------0--------|-----------0--------|
--------3-----3-----|--------2-----2-----|--------3-----3-----|
-----1-----------1--|-----2-----------2--|-----1-----------1--|
--------------------|--------------------|--------------------|
--------------------|--0-----------------|--------------------|
--0-----------------|--------------------|--0-----------------|

                       A             
-----------0--------|---------------||
--------3-----3-----|---------------||
-----1-----------1--|--2------------||
--------------------|---------------||
--------------------|--0------------||
--0-----------------|---------------||


Code: Alles auswählen

Übung 4:

     A                          E                           
E||-----------0--------------|-----------0--------------|
B||--------2--------2-----2--|--------0--------0-----0--|
G||-----2--------------2-----|-----1--------------1-----|
D||--------------------------|--------------------------|
A||--0-----------------------|--------------------------|
E||--------------------------|--0-----------------------|

                             A                           
-----------0--------------|-----------0--------------|
--------0--------0-----0--|--------2--------2-----2--|
-----1--------------1-----|-----2--------------2-----|
--------------------------|--------------------------|
--------------------------|--0-----------------------|
--0-----------------------|--------------------------|

  A                          E7                         
-----------0--------------|-----------0--------------|
--------2--------2-----2--|--------3--------3-----0--|
-----2--------------2-----|-----1--------------1-----|
--------------------------|--------------------------|
--0-----------------------|--------------------------|
--------------------------|--0-----------------------|

                             A                                   
-----------0--------------|-------------------||
--------3--------3-----0--|--2----------------||
-----1--------------1-----|--2----------------||
--------------------------|-------------------||
--------------------------|--0----------------||
--0-----------------------|-------------------||


Hier kann man das entsprechende Videotutorial dazu ansehen:
http://youtu.be/0pHPwuw7GIA

und hier das entsprechende Printmedium (PDF) herunterladen:
http://remarc.jimdo.com/liedbegleitung/lektion-2/

Weitere Lektionen folgen so bald als möglich.

Liebe Grüße
Remarc

Benutzeravatar
Remarc
findet den Ausgang nicht
Beiträge: 415
Registriert: 03.09.2009

Erstellt: von Remarc » 27.01.2012, 19:04

Lektion 3

Inhalte:

Akkorde: D-Dur, A-Dur, E-Dur, E7
Anschlag: Daumen, Zeigefinger, Mittelfinger, Ringfinger
Notenwerte: Achtelnoten gemischt mit Vierteln
Taktarten: 4/4 Takt

(Neue Inhalte sind rot markiert.)

Code: Alles auswählen

Übung 5:

E |-----------0-------------------|-----------2-------------------|
B |--------2-----2-----2----------|--------3-----3-----3----------|
G |-----2-----------2-----2-------|-----2-----------2-----2-------|
D |-------------------------------|--0----------------------------|
A |--0----------------------------|-------------------------------|
E |-------------------------------|-------------------------------|


-----------0-------------------|-----------0-------------------|
--------0-----0-----0----------|--------2-----2-----2----------|
-----1-----------1-----1-------|-----2-----------2-----2-------|
-------------------------------|-------------------------------|
-------------------------------|--0----------------------------|
--0----------------------------|-------------------------------|


-----------0-------------------|-----------2-------------------|
--------2-----2-----2----------|--------3-----3-----3----------|
-----2-----------2-----2-------|-----2-----------2-----2-------|
-------------------------------|--0----------------------------|
--0----------------------------|-------------------------------|
-------------------------------|-------------------------------|


-----------0-------------------|----------||
--------3-----3-----3----------|----------||
-----1-----------1-----1-------|--2-------||
-------------------------------|----------||
-------------------------------|--0-------||
--0----------------------------|----------||


Code: Alles auswählen

Übung 6:

E |-----------0-------------------|-----------2-------------------|
B |--------2--------2-----2-------|--------3----------------------|
G |-----2--------------2----------|-----2-------------------------|
D |-------------------------------|--0----------------------------|
A |--0----------------------------|-------------------------------|
E |-------------------------------|-------------------------------|


-----------0-------------------|-----------0-------------------|
--------0--------0-----0-------|--------2----------------------|
-----1--------------1----------|-----2-------------------------|
-------------------------------|-------------------------------|
-------------------------------|--0----------------------------|
--0----------------------------|-------------------------------|


-----------2-------------------|-----------0-------------------|
--------3--------3-----3-------|--------2----------------------|
-----2--------------2----------|-----2-------------------------|
--0----------------------------|-------------------------------|
-------------------------------|--0----------------------------|
-------------------------------|-------------------------------|


-----------0-------------------|----------||
--------3--------3-----3-------|--2-------||
-----1--------------1----------|----------||
-------------------------------|----------||
-------------------------------|--0-------||
--0----------------------------|----------||


Hier kann man das entsprechende Videotutorial dazu ansehen:
http://youtu.be/ceGqKqz7-iw

und hier das entsprechende Printmedium (PDF) herunterladen:
http://remarc.jimdo.com/liedbegleitung/lektion-3/

Weitere Lektionen folgen so bald als möglich.

Liebe Grüße
Remarc

5 Beiträge   •   Seite 1 von 1
  • Ähnliche Themen
    Antworten
    Zugriffe
    Letzter Beitrag

Wer ist online?

Mitglieder in diesem Forum: 0 Mitglieder und 0 Gäste