Brauche Hilfe bei Guitar Pro Eingabe

3 Beiträge   •   Seite 1 von 1
Supernobbe
meint es ernst
Beiträge: 13
Registriert: 12.10.2009

Brauche Hilfe bei Guitar Pro Eingabe

Erstellt: von Supernobbe » 21.06.2012, 19:50

Servus,

ich möchte gern das was ich unten eingefügt habe in Guitar Pro rein schreiben. Ich hab aber leider keinen blassen schimmer wie das funktioniert, bei mir kommt nur Mist raus.

Es ist ein kleiner Teil von Metallica One, und ich möchte den gern so spielen und auch in meiner GP Datei so stehen haben, aber ich bin am Verzweifeln.

Kann mir jemand bitte helfen?

G5 A5 D5
E|-----------------------------------------
B|----------------------------3------------
G|----------------------2--0-----2--0------
D|-------0--------2--0---------------------
A|----5--------0---------------------------
E|-3--------3------------------------------
G
E|-----------------------------------------
B|------0-0h3p0---0-0h3p0---0--------------
G|----4---------4---------4----------------
D|-5---------------------------------------
A|-----------------------------------------
E|-----------------------------------------
F Em
E|------------1--------------------0-------
B|------1--------1--------0-----0-----0----
G|---------0--------0--------0-------------
D|-2/3-----------------2-------------------
A|-----------------------------------------
E|-----------------------------------------
D5 G
E|-----------------------------------------
B|----------3-------------0-0h3p0---0------
G|----2--0-----2--0-----4---------4--------
D|-0-----------------3---------------------
A|-----------------------------------------
E|-----------------------------------------
F
E|-----------------------1-----------------
B|-0h3p0---0-------1--------1--------------
G|-------4------------0--------0-----------
D|------------2/3--------------------------
A|-----------------------------------------
E|-----------------------------------------
Em
E|-----------------------------------------
B|----0-----0------------------------------
G|-------0---------------------------------
D|-2---------------------------------------
A|-------------2/3-------------------------
E|-----------------------------------------

Servus
Nobbe
Ob eine Sache gelingt erfährst Du nicht wenn Du darüber nachdenkst, sondern wenn Du es ausprobierst :-)

Benutzeravatar
hnz
findet den Ausgang nicht
Beiträge: 415
Registriert: 09.12.2010

Erstellt: von hnz » 21.06.2012, 20:04

Übung macht den Meister :) das einzige Problem, dass ich mir vorstellen kann ist, dass du keinen blassen Schimmer von Notenwerten hast.

Also, brav lesen und darüber freuen, dass du es selbst geschafft hast.

Der Rest der Bedienung ist nämlich wirklich nur Zahlen drücken und Mauszeiger betätigen.

hnz

Supernobbe
meint es ernst
Beiträge: 13
Registriert: 12.10.2009

Erstellt: von Supernobbe » 21.06.2012, 22:31

Ah, OK, danke für den Tip,

jetzt weiß i a bisserl mehr, mit 16tel und Triolen und so weiter...
Ob eine Sache gelingt erfährst Du nicht wenn Du darüber nachdenkst, sondern wenn Du es ausprobierst :-)

3 Beiträge   •   Seite 1 von 1
  • Ähnliche Themen
    Antworten
    Zugriffe
    Letzter Beitrag

Wer ist online?

Mitglieder in diesem Forum: 0 Mitglieder und 3 Gäste