meine rockige version von "greensleeves

10 Beiträge   •   Seite 1 von 1
Gast

meine rockige version von "greensleeves

Erstellt: von Gast » 08.08.2010, 20:11

hi,
mir ging letztens die melodie von greensleeves im kopf rum und da ich wusste, dass das lied mit einem Amoll-Akkord anfängt, hab ich mal per Am-Scale versucht, dass Lied aufzuschreiben, so wie es mir gefällt.
Den größten Teil hab ich aus dem Kopf gemacht, bzw. anhand eines Pianocovers herausgehört, kleinere Teile musste ich von ultimate-guitar transponieren.
SO hab ich das noch nie gemacht und ich komme zu dem fazit: es hat spaß gemacht, war garnicht so schwer und ich habe sicherlich wieder was gelernt :-)

die tabs sind leider bei UG noch nicht hochgeladen, deswegen lad ich sie jetzt mal hier so als ASCII und als Tux-Guitar-File hoch!

Code: Alles auswählen

Greensleeves
     E  E  Q    E  E  Q       Q    Q    Q    Q       E  E  Q    Q    Q     
E||------------------------|------------3---------|-----------------------|
B||-------------------5----|--6----5----3----0----|-----------------------|
G||--------5----7----------|----------------------|--0---------------5----|
D||--7-----7---------------|-------3--------------|--0-----5----7----7----|
A||------------------------|----------------------|-----------------------|
E||------------------------|----------------------|-----------------------|


  Q    Q    Q    Q       Q    Q     E  E  Q       Q    Q    Q    Q     
----------------------|------------------------|----------------------|
----------------------|------------------------|------------5----6----|
----------------------|--4---------------------|--5----7--------------|
--7----7----5----7----|--2----5S----7-----7----|--7-------------------|
----------------------|------------------------|----------------------|
----------------------|------------------------|----------------------|


  Q    Q    Q    Q       Q    Q    Q    Q       Q    Q    Q    Q     
----------------------|----------------------|----------------------|
--5-------------------|----------------------|----------------------|
-------7----4---------|-------4----5----4----|----------------------|
-------5---------5----|--7-------------------|--7----6----4----6----|
-----------------5----|----------------------|----------------------|
----------------------|----------------------|----------------------|


  Q    Q    H           H        H           Q    Q    Q    E  E   
---------------------|--------------------|-----------------------|
---------------------|--------------------|--7----5---------------|
---------------------|--5--------5--------|------------7----4-----|
--7----7----7--------|--5--------5--------|-----------------------|
--7----7----7--------|--------------------|-----------------------|
--5----5----5--------|--------------------|-----------------------|


  E  E  Q    Q    E  E     Q    Q    Q    Q       Q    Q    H         
------------------------|----------------------|---------------------|
------------------------|----------------------|---------------------|
-------------4----5-----|----------------------|---------------------|
--5-----7---------7-----|--7----7----6----7----|--9----6-------------|
--5---------------------|----------------------|--7---------7--------|
------------------------|----------------------|---------------------|


  E  E  E  E  Q    Q       Q    Q    Q    Q       Q    Q    Q    Q     
------------------------|----------------------|----------------------|
--------------7----5----|----------------------|----------------------|
--5-----5---------------|--7----4--------------|--4----5----4---------|
--5-----5---------------|------------5----7----|-------7---------7----|
------------------------|------------5---------|----------------------|
------------------------|----------------------|----------------------|


  Q    Q    Q    Q       W                 
----------------------|-------------------||
----------------------|-------------------||
----------------------|-------------------||
--6----4----6---------|--7----------------||
--7-------------------|--7----------------||
----------------------|--5----------------||



edit: hmm, hätte sie gern als datei hochgeladen, aber Tux war nicht erlaubt und des andere iwie auch nicht ^^ Komisch, naja.

viel spaß






und wer verbesserungen hat, bitte posten!

Moderatoraktion: Gezipte Tab-Dateien hinzugefügt, und Tabs weniger breit gemacht, dass sie nicht so viel Platz brauchen.
Dateianhänge
greensleeves_von_Pferd.zip
Guitar-Pro und Tux-Datei
(1.2 KiB) 50-mal heruntergeladen
greensleeves pdf.pdf
(17.34 KiB) 38-mal heruntergeladen

Benutzeravatar
musicdevil
lebende Forenlegende
Beiträge: 3486
Registriert: 26.01.2010
Wohnort: zu Hause...

Erstellt: von musicdevil » 08.08.2010, 20:28

und warum spielst du es nicht auch einfach mal vor?
als video wäre am besten, oder notfalls auch als mp3...
natürlich nicht hier direkt hochladen wegen urheberrecht ;)

Gast

Erstellt: von Gast » 08.08.2010, 20:51

hi musicdevil,

würde ich gerne, aber ich habe mein pod ux1 zurückgeschickt, war nicht so das wahre für mich! und ne handy aufnahme will ich euch nun auch nicht antun :P

Benutzeravatar
mjchael
Mod-Team
Beiträge: 8972
Registriert: 08.07.2007
Wohnort: Marburger Hinterland
Gitarrist seit: 1980

Erstellt: von mjchael » 08.08.2010, 21:32

Tipp:
Speichere die Datei am besten als Guitar-Pro oder auch Powertab oder Tux. Und dann zippe die einfach die Datei, und lade das Zip hoch.

Gruß Mjchael

Gast

Erstellt: von Gast » 08.08.2010, 21:44

mjchael, wie speicher ich denn im tux eine datei als guitar pro file? bei exportieren als finde ich nur ascii, tux guitar 1.0 ... etc :(

hat meine version schonmal jemand probiert und kan nwas dazu sagen?

Benutzeravatar
Eddie77
kam, sah und postete
Beiträge: 56
Registriert: 25.06.2009
Wohnort: Nähe Düsseldorf

Erstellt: von Eddie77 » 09.08.2010, 09:38

In TuxGuitar einfach "Speichern als" anklicken (oder F12 drücken) und dann bei Dateityp ".gp5" auswählen.

Gast

Erstellt: von Gast » 09.08.2010, 11:33

irgendwie steh ich gerade total aufm schlauch.. mit welchem programm kann ich .tg oder .gp files zippen? mit 7-zip scheitere ich immer und für winrar bin ich irgendwie zu doof.
wie/wo mans hochlädt, weiß ich

Benutzeravatar
mjchael
Mod-Team
Beiträge: 8972
Registriert: 08.07.2007
Wohnort: Marburger Hinterland
Gitarrist seit: 1980

Erstellt: von mjchael » 10.08.2010, 01:56

So, den Donloadlink habe ich ich gelöscht.
Bitte verwendet keine so dubiosen Upload-Portale, wo man bei jedem Klick Angst haben muss, einen Prämiumvertrag auf die Nase gedrückt zu bekommen.

Zip-Dateien kann man ganz leicht hier im Forum hochladen. Du siehst den entsprechenden Link dazu bevor du einen Post abschickst.

Ich hab es jetzt schon für dich im ersten Post gemacht.

Um eine Datei mit 7-Zip zu zipppen reicht es aus die entsprechende Datei oder den Ordner (wenn man mehrere Dateien raufladen möchte) mit der rechten Maustaste anzuklicken und im Kontextmenü "7zip" rauszusuchen und dann ganz unten zu "Hinzufügen zu 'dateiname.zip' " anklicken.

Wenn das aus irgendeinem Grund nicht klappt, dann 7zip als Programm öffnen, und in der Menüleiste auf "Extras" gehen. Dort auf "Optionen" und dort den Reinter "Einstellungen" auswählen, und den Eintrag "System-Kontextmenü im Dateimenü anzeigen" anklicken und dann auf "OK" klicken. Dann sollte der Eintag auch als Kontextmenü zur Verfügung stehen.

Sollte das nicht klappen kannst du immer noch im Kontextmenü (Datei mit der rechten Maustaste anklicken) auf "Senden an" und dann auf "komprimierter Ordner" gehen. Das sollte auch klappen.

Soviel dazu.

Gruß Mjchael

Benutzeravatar
mjchael
Mod-Team
Beiträge: 8972
Registriert: 08.07.2007
Wohnort: Marburger Hinterland
Gitarrist seit: 1980

Erstellt: von mjchael » 10.08.2010, 02:16

Ich weiß jetzt nicht wie sich das Stück auf deiner E-Gitarre anhört.

Aber als Midi stimmt das ganze Timing nicht.
Es ist eigentlich ein 3/4-Takt. Zudem musst du die Notenwerte ändern, denn die einzelnen Noten werden unterschiedlich lang gespielt.

Besorge dir einfach mal die Noten, und orientiere dich mit den Notenwerten an der Vorlage.

Man kann es auch im 4/4-Takt spielen, aber auch da braucht man ganz andere Notenwerte.

Ein kleiner Fehler ist in der Melodieführung. Da scheint eine Note zu hoch geraten zu sein.

An ein paar Stellen frage ich mich, warum du da die Noten nicht einfach verdoppelt hast, und an ein paar anderen stellen hast du es getan. Und zwar so, dass in meinen Ohren der Fluss nicht mehr stimmt. Der Groove geht bei so was schnell verloren. Dann lieber etwas einfacher gestalten.

Du hast das ganze weitestgehend in der Am-Tonleiter im 5 Bund gespielt. (Nur manchmal MUSSTE man in den 4 ). Beim Lagewechsel hätte ich mal überprüft, ob es unbedingt notwendig war, die Lage zu verlassen und in den ersten Bünden zu spielen. Wenn sich dadurch kein besonderer Vorteil ergibt, wäre ich einfach im 5. Bund geblieben. Aber ich hab noch nicht Versucht, wie ich es selbst spielen würde.

Ansonsten gibt es keine großen Unterschiede zum Original, so dass es im großen und ganzen passt.

Ich selbst spiele aber lieber die Klassische Variante mit offenen Akkorden und gehe da ins Fingerpicking (synkopierter 4/4-Takt) über. Da hab ich für mich mehr Möglichkeiten.

Aber wenn man mit E-Gitarren-Effekten arbeiten möchte, dann kann man schon was mit deiner Vorlage anfangen. Ich würd halt nur nochmal die Notenwerte und den Takt (3/4- statt 4/4) überprüfen, und auf den Groove achten. (Für die Klassiker, auf das Metrum (das ist nicht das Metronom, sondern die richtige Betonung bei Gedichten, Liedern und Melodien.)

Ausbaufähig! :)

Gruß Mjchael
Zuletzt geändert von mjchael am 11.08.2010, 00:39, insgesamt 1-mal geändert.

Gast

Erstellt: von Gast » 10.08.2010, 10:27

hi michael,

danke für die tipps. ich fühl mich leider stark überfordert mit tuxguitar und den notenwerten, deswegen passt des alles nich gerade gut ;) ist halt wie gesagt 4/4 und nicht 3/4 .
das mit den doppelnoten werde ich nachher nochmal nachschauen, vielleicht kann ich da noch ein paar hinzufügen, bzw (adäquat) weglassen, sodass der groove eben entsteht.
gleiches gilt für das "e" auf der d-saite, das guck ich nochmal nach und versuchs alles nochmal mit den richtigen notwerten.

:-)

10 Beiträge   •   Seite 1 von 1
  • Ähnliche Themen
    Antworten
    Zugriffe
    Letzter Beitrag

Wer ist online?

Mitglieder in diesem Forum: 0 Mitglieder und 1 Gast